Forgotten Lands
| Dungeons and Dragons | D&D | Forgotten Realms | FR | Neverwinter Nights | NWN | Mask of The Betrayer | MotB |
Четверг
14.12.2017
05:22
Приветствую Вас Гость | RSS Главная | Кровь - это жизнь - Форум | Регистрация | Вход
[ Новые сообщения · Участники · Правила форума · Поиск · RSS ]
Страница 1 из 11
Модератор форума: Маркон_Феникс, Malkavian 
Форум » Поляна Ролевиков » Мир Тьмы (World of Darkness) » Кровь - это жизнь (Пара таблиц о крови)
Кровь - это жизнь
Маркон_ФениксДата: Понедельник, 21.01.2008, 21:38 | Сообщение # 1
Хранитель баланса
Группа: Dungeon Master
Сообщений: 529
Статус: Offline
Таблица: Поколения

Максимум: Показывает, какое максимальное значение могут принимать любые Трайты в таблице персонажа (за исключением Человечности и Силы Воли). Это особенно важно для Дисциплин.
Запас Крови: Более старые вампиры могут иметь в своем теле больше крови, чем молодые.
BP/раунд: Показывает, сколько BP вампир может потратить за один раунд для своих целей.

Поколение-------Максимум--------Запас Крови---------BP/раунд
3-------------------------10---------------???--------------------???
4--------------------------9----------------50--------------------- 10
5--------------------------8----------------40----------------------8
6--------------------------7----------------30------------------- ---6
7--------------------------6----------------20----------------------5
8--------------------------5----------------15----------------- -----3
9--------------------------5----------------14----------------------2
10-------------------------5----------------13--------------- -------1
11-------------------------5----------------12----------------------1
12-------------------------5----------------11------------- ---------1
13+-----------------------5----------------10----------------------1
========================================================== ==========

Таблица: Пункты Крови (BP)

Источник___________Пункты Крови
Вампир--------------------10-???
Веревольф----------------25
Обычный человек--------10
Ребенок---------------------5
Корова----------------------5
Собака----------------------2
Кошка----------------------- 1
Медпакет с кровью--------1
Крыса------------------------1/2
Птица------------------------1/4


Сын небесных сфер, здесь лишь демоны и змеи
Но ты молод и смел, вместе миром овладеем
Ты мне поклонись и получишь все богатства
Власть тьмы вот - это жизнь в беспробудном танце адском...


Сообщение отредактировал Маркон_Феникс - Понедельник, 21.01.2008, 21:44
 
Форум » Поляна Ролевиков » Мир Тьмы (World of Darkness) » Кровь - это жизнь (Пара таблиц о крови)
Страница 1 из 11
Поиск:


Copyright Oranj © 2017 Сайт управляется системой uCoz